ISO-10303-21;
HEADER;
FILE_DESCRIPTION (( 'STEP AP203' ),
    '1' );
FILE_NAME ('Q-OZHWP-R2-25.4-1064-M.STEP',
    '2020-12-22T09:18:01',
    ( '' ),
    ( '' ),
    'SwSTEP 2.0',
    'SolidWorks 2020',
    '' );
FILE_SCHEMA (( 'CONFIG_CONTROL_DESIGN' ));
ENDSEC;

DATA;
#1 =( LENGTH_UNIT ( ) NAMED_UNIT ( * ) SI_UNIT ( .MILLI., .METRE. ) );
#2 = FACE_OUTER_BOUND ( 'NONE', #128, .T. ) ;
#3 = CC_DESIGN_DATE_AND_TIME_ASSIGNMENT ( #126, #72, ( #79 ) ) ;
#4 = EDGE_LOOP ( 'NONE', ( #92, #68 ) ) ;
#5 = CARTESIAN_POINT ( 'NONE',  ( -3.000000000000000888, 12.69999999999999929, 0.000000000000000000 ) ) ;
#6 = AXIS2_PLACEMENT_3D ( 'NONE', #5, #17, #95 ) ;
#7 = APPROVAL_DATE_TIME ( #47, #77 ) ;
#8 = APPROVAL_STATUS ( 'not_yet_approved' ) ;
#9 = DATE_AND_TIME ( #136, #85 ) ;
#10 = APPROVAL_DATE_TIME ( #137, #139 ) ;
#11 = PERSON_AND_ORGANIZATION ( #152, #67 ) ;
#12 = APPROVAL ( #61, 'UNSPECIFIED' ) ;
#13 = CC_DESIGN_PERSON_AND_ORGANIZATION_ASSIGNMENT ( #11, #135, ( #79 ) ) ;
#14 = EDGE_LOOP ( 'NONE', ( #140, #93 ) ) ;
#15 = CARTESIAN_POINT ( 'NONE',  ( 3.000000000000001776, 1.555301434917138433E-15, -12.69999999999999929 ) ) ;
#16 = AXIS2_PLACEMENT_3D ( 'NONE', #20, #46, #150 ) ;
#17 = DIRECTION ( 'NONE',  ( 1.000000000000000000, 0.000000000000000000, 0.000000000000000000 ) ) ;
#18 = APPROVAL_PERSON_ORGANIZATION ( #102, #77, #35 ) ;
#19 = DIRECTION ( 'NONE',  ( 0.000000000000000000, 0.000000000000000000, 1.000000000000000000 ) ) ;
#20 = CARTESIAN_POINT ( 'NONE',  ( 3.000000000000000888, 12.69999999999999929, 0.000000000000000000 ) ) ;
#21 = ADVANCED_FACE ( 'NONE', ( #53 ), #130, .F. ) ;
#22 =( NAMED_UNIT ( * ) SI_UNIT ( $, .STERADIAN. ) SOLID_ANGLE_UNIT ( ) );
#23 = COORDINATED_UNIVERSAL_TIME_OFFSET ( 8, 0, .AHEAD. ) ;
#24 = MANIFOLD_SOLID_BREP ( 'Ðý×', #169 ) ;
#25 = DIRECTION ( 'NONE',  ( 0.000000000000000000, 0.000000000000000000, 1.000000000000000000 ) ) ;
#26 = COORDINATED_UNIVERSAL_TIME_OFFSET ( 8, 0, .AHEAD. ) ;
#27 = CC_DESIGN_APPROVAL ( #77, ( #79 ) ) ;
#28 = EDGE_CURVE ( 'NONE', #116, #49, #60, .T. ) ;
#29 = PRODUCT_DEFINITION_SHAPE ( 'NONE', 'NONE',  #79 ) ;
#30 = CYLINDRICAL_SURFACE ( 'NONE', #146, 12.69999999999999929 ) ;
#31 = DIRECTION ( 'NONE',  ( -1.000000000000000000, -0.000000000000000000, -0.000000000000000000 ) ) ;
#32 = DIRECTION ( 'NONE',  ( -1.000000000000000000, -0.000000000000000000, -0.000000000000000000 ) ) ;
#33 = CARTESIAN_POINT ( 'NONE',  ( -3.000000000000001776, 0.000000000000000000, 0.000000000000000000 ) ) ;
#34 = DIRECTION ( 'NONE',  ( -1.000000000000000000, -0.000000000000000000, -0.000000000000000000 ) ) ;
#35 = APPROVAL_ROLE ( '' ) ;
#36 = APPROVAL_ROLE ( '' ) ;
#37 = PERSON_AND_ORGANIZATION ( #152, #67 ) ;
#38 = DIRECTION ( 'NONE',  ( 1.000000000000000000, 0.000000000000000000, 0.000000000000000000 ) ) ;
#39 = PRODUCT_RELATED_PRODUCT_CATEGORY ( 'detail', '', ( #66 ) ) ;
#40 = AXIS2_PLACEMENT_3D ( 'NONE', #98, #147, #149 ) ;
#41 = AXIS2_PLACEMENT_3D ( 'NONE', #110, #97, #19 ) ;
#42 = EDGE_LOOP ( 'NONE', ( #52, #172, #158, #112 ) ) ;
#43 = DIRECTION ( 'NONE',  ( 0.000000000000000000, 0.000000000000000000, 1.000000000000000000 ) ) ;
#44 = DIRECTION ( 'NONE',  ( -1.000000000000000000, -0.000000000000000000, -0.000000000000000000 ) ) ;
#45 = LINE ( 'NONE', #55, #115 ) ;
#46 = DIRECTION ( 'NONE',  ( -1.000000000000000000, 0.000000000000000000, -0.000000000000000000 ) ) ;
#47 = DATE_AND_TIME ( #168, #78 ) ;
#48 = PERSON_AND_ORGANIZATION_ROLE ( 'design_supplier' ) ;
#49 = VERTEX_POINT ( 'NONE', #56 ) ;
#50 = ADVANCED_BREP_SHAPE_REPRESENTATION ( 'Q-OZHWP-R2-25.4-1064-M', ( #24, #134 ), #141 ) ;
#51 = CC_DESIGN_APPROVAL ( #139, ( #171 ) ) ;
#52 = ORIENTED_EDGE ( 'NONE', *, *, #156, .F. ) ;
#53 = FACE_OUTER_BOUND ( 'NONE', #14, .T. ) ;
#54 = PLANE ( 'NONE',  #6 ) ;
#55 = CARTESIAN_POINT ( 'NONE',  ( -3.000000000000000000, 0.000000000000000000, 12.69999999999999929 ) ) ;
#56 = CARTESIAN_POINT ( 'NONE',  ( -3.000000000000001776, 1.555301434917138433E-15, -12.69999999999999929 ) ) ;
#57 = CC_DESIGN_PERSON_AND_ORGANIZATION_ASSIGNMENT ( #138, #75, ( #66 ) ) ;
#58 = DATE_AND_TIME ( #101, #88 ) ;
#59 = PERSON_AND_ORGANIZATION ( #152, #67 ) ;
#60 = CIRCLE ( 'NONE', #159, 12.69999999999999929 ) ;
#61 = APPROVAL_STATUS ( 'not_yet_approved' ) ;
#62 = PERSON_AND_ORGANIZATION ( #152, #67 ) ;
#63 = APPLICATION_CONTEXT ( 'configuration controlled 3d designs of mechanical parts and assemblies' ) ;
#64 = CIRCLE ( 'NONE', #161, 12.69999999999999929 ) ;
#65 = SECURITY_CLASSIFICATION ( '', '', #86 ) ;
#66 = PRODUCT ( 'Q-OZHWP-R2-25.4-1064-M', 'Q-OZHWP-R2-25.4-1064-M', '', ( #154 ) ) ;
#67 = ORGANIZATION ( 'UNSPECIFIED', 'UNSPECIFIED', '' ) ;
#68 = ORIENTED_EDGE ( 'NONE', *, *, #174, .T. ) ;
#69 = CC_DESIGN_DATE_AND_TIME_ASSIGNMENT ( #9, #153, ( #65 ) ) ;
#70 = CARTESIAN_POINT ( 'NONE',  ( 3.000000000000001776, 0.000000000000000000, 12.69999999999999929 ) ) ;
#71 = DIRECTION ( 'NONE',  ( -1.000000000000000000, -0.000000000000000000, -0.000000000000000000 ) ) ;
#72 = DATE_TIME_ROLE ( 'creation_date' ) ;
#73 = APPROVAL_ROLE ( '' ) ;
#74 = CC_DESIGN_APPROVAL ( #12, ( #65 ) ) ;
#75 = PERSON_AND_ORGANIZATION_ROLE ( 'design_owner' ) ;
#76 = APPROVAL_DATE_TIME ( #58, #12 ) ;
#77 = APPROVAL ( #166, 'UNSPECIFIED' ) ;
#78 = LOCAL_TIME ( 17, 18, 1.000000000000000000, #114 ) ;
#79 = PRODUCT_DEFINITION ( 'UNKNOWN', '', #171, #121 ) ;
#80 = CYLINDRICAL_SURFACE ( 'NONE', #96, 12.69999999999999929 ) ;
#81 = DIRECTION ( 'NONE',  ( 0.000000000000000000, 0.000000000000000000, 1.000000000000000000 ) ) ;
#82 = ORIENTED_EDGE ( 'NONE', *, *, #156, .T. ) ;
#83 = ADVANCED_FACE ( 'NONE', ( #118 ), #30, .T. ) ;
#84 = CARTESIAN_POINT ( 'NONE',  ( -3.000000000000001776, 0.000000000000000000, 12.69999999999999929 ) ) ;
#85 = LOCAL_TIME ( 17, 18, 1.000000000000000000, #23 ) ;
#86 = SECURITY_CLASSIFICATION_LEVEL ( 'unclassified' ) ;
#87 = UNCERTAINTY_MEASURE_WITH_UNIT (LENGTH_MEASURE( 1.000000000000000082E-05 ), #1, 'distance_accuracy_value', 'NONE');
#88 = LOCAL_TIME ( 17, 18, 1.000000000000000000, #26 ) ;
#89 = PERSON_AND_ORGANIZATION ( #152, #67 ) ;
#90 = ADVANCED_FACE ( 'NONE', ( #2 ), #80, .T. ) ;
#91 = ORIENTED_EDGE ( 'NONE', *, *, #106, .F. ) ;
#92 = ORIENTED_EDGE ( 'NONE', *, *, #28, .T. ) ;
#93 = ORIENTED_EDGE ( 'NONE', *, *, #151, .F. ) ;
#94 = LINE ( 'NONE', #145, #132 ) ;
#95 = DIRECTION ( 'NONE',  ( 0.000000000000000000, 0.000000000000000000, -1.000000000000000000 ) ) ;
#96 = AXIS2_PLACEMENT_3D ( 'NONE', #162, #71, #43 ) ;
#97 = DIRECTION ( 'NONE',  ( -1.000000000000000000, -0.000000000000000000, -0.000000000000000000 ) ) ;
#98 = CARTESIAN_POINT ( 'NONE',  ( 3.000000000000001776, 0.000000000000000000, 0.000000000000000000 ) ) ;
#99 = CARTESIAN_POINT ( 'NONE',  ( 0.000000000000000000, 0.000000000000000000, 0.000000000000000000 ) ) ;
#100 = CALENDAR_DATE ( 2020, 22, 12 ) ;
#101 = CALENDAR_DATE ( 2020, 22, 12 ) ;
#102 = PERSON_AND_ORGANIZATION ( #152, #67 ) ;
#103 = CIRCLE ( 'NONE', #41, 12.69999999999999929 ) ;
#104 = APPLICATION_PROTOCOL_DEFINITION ( 'international standard', 'config_control_design', 1994, #131 ) ;
#105 = ADVANCED_FACE ( 'NONE', ( #120 ), #54, .F. ) ;
#106 = EDGE_CURVE ( 'NONE', #144, #116, #45, .T. ) ;
#107 = ORIENTED_EDGE ( 'NONE', *, *, #28, .F. ) ;
#108 = DIRECTION ( 'NONE',  ( 0.000000000000000000, 0.000000000000000000, 1.000000000000000000 ) ) ;
#109 = DIRECTION ( 'NONE',  ( 0.000000000000000000, 0.000000000000000000, 1.000000000000000000 ) ) ;
#110 = CARTESIAN_POINT ( 'NONE',  ( 3.000000000000001776, 0.000000000000000000, 0.000000000000000000 ) ) ;
#111 = CC_DESIGN_PERSON_AND_ORGANIZATION_ASSIGNMENT ( #89, #125, ( #171 ) ) ;
#112 = ORIENTED_EDGE ( 'NONE', *, *, #174, .F. ) ;
#113 = SHAPE_DEFINITION_REPRESENTATION ( #29, #50 ) ;
#114 = COORDINATED_UNIVERSAL_TIME_OFFSET ( 8, 0, .AHEAD. ) ;
#115 = VECTOR ( 'NONE', #44, 1000.000000000000000 ) ;
#116 = VERTEX_POINT ( 'NONE', #84 ) ;
#117 = CC_DESIGN_SECURITY_CLASSIFICATION ( #65, ( #171 ) ) ;
#118 = FACE_OUTER_BOUND ( 'NONE', #42, .T. ) ;
#119 =( NAMED_UNIT ( * ) PLANE_ANGLE_UNIT ( ) SI_UNIT ( $, .RADIAN. ) );
#120 = FACE_OUTER_BOUND ( 'NONE', #4, .T. ) ;
#121 = DESIGN_CONTEXT ( 'detailed design', #63, 'design' ) ;
#122 = COORDINATED_UNIVERSAL_TIME_OFFSET ( 8, 0, .AHEAD. ) ;
#123 = PERSON_AND_ORGANIZATION ( #152, #67 ) ;
#124 = LOCAL_TIME ( 17, 18, 1.000000000000000000, #122 ) ;
#125 = PERSON_AND_ORGANIZATION_ROLE ( 'creator' ) ;
#126 = DATE_AND_TIME ( #155, #124 ) ;
#127 = CC_DESIGN_PERSON_AND_ORGANIZATION_ASSIGNMENT ( #123, #167, ( #65 ) ) ;
#128 = EDGE_LOOP ( 'NONE', ( #175, #82, #107, #91 ) ) ;
#129 = APPROVAL_PERSON_ORGANIZATION ( #37, #139, #73 ) ;
#130 = PLANE ( 'NONE',  #16 ) ;
#131 = APPLICATION_CONTEXT ( 'configuration controlled 3d designs of mechanical parts and assemblies' ) ;
#132 = VECTOR ( 'NONE', #32, 1000.000000000000000 ) ;
#133 = CIRCLE ( 'NONE', #40, 12.69999999999999929 ) ;
#134 = AXIS2_PLACEMENT_3D ( 'NONE', #99, #25, #38 ) ;
#135 = PERSON_AND_ORGANIZATION_ROLE ( 'creator' ) ;
#136 = CALENDAR_DATE ( 2020, 22, 12 ) ;
#137 = DATE_AND_TIME ( #100, #173 ) ;
#138 = PERSON_AND_ORGANIZATION ( #152, #67 ) ;
#139 = APPROVAL ( #8, 'UNSPECIFIED' ) ;
#140 = ORIENTED_EDGE ( 'NONE', *, *, #148, .F. ) ;
#141 =( GEOMETRIC_REPRESENTATION_CONTEXT ( 3 ) GLOBAL_UNCERTAINTY_ASSIGNED_CONTEXT ( ( #87 ) ) GLOBAL_UNIT_ASSIGNED_CONTEXT ( ( #1, #119, #22 ) ) REPRESENTATION_CONTEXT ( 'NONE', 'WORKASPACE' ) );
#142 = VERTEX_POINT ( 'NONE', #15 ) ;
#143 = APPROVAL_PERSON_ORGANIZATION ( #59, #12, #36 ) ;
#144 = VERTEX_POINT ( 'NONE', #70 ) ;
#145 = CARTESIAN_POINT ( 'NONE',  ( -3.000000000000000000, 1.555301434917138433E-15, -12.69999999999999929 ) ) ;
#146 = AXIS2_PLACEMENT_3D ( 'NONE', #163, #34, #109 ) ;
#147 = DIRECTION ( 'NONE',  ( -1.000000000000000000, -0.000000000000000000, -0.000000000000000000 ) ) ;
#148 = EDGE_CURVE ( 'NONE', #144, #142, #103, .T. ) ;
#149 = DIRECTION ( 'NONE',  ( 0.000000000000000000, 0.000000000000000000, 1.000000000000000000 ) ) ;
#150 = DIRECTION ( 'NONE',  ( -0.000000000000000000, 0.000000000000000000, 1.000000000000000000 ) ) ;
#151 = EDGE_CURVE ( 'NONE', #142, #144, #133, .T. ) ;
#152 = PERSON ( 'UNSPECIFIED', 'UNSPECIFIED', 'UNSPECIFIED', ('UNSPECIFIED'), ('UNSPECIFIED'), ('UNSPECIFIED') ) ;
#153 = DATE_TIME_ROLE ( 'classification_date' ) ;
#154 = MECHANICAL_CONTEXT ( 'NONE', #131, 'mechanical' ) ;
#155 = CALENDAR_DATE ( 2020, 22, 12 ) ;
#156 = EDGE_CURVE ( 'NONE', #142, #49, #94, .T. ) ;
#157 = APPLICATION_PROTOCOL_DEFINITION ( 'international standard', 'config_control_design', 1994, #63 ) ;
#158 = ORIENTED_EDGE ( 'NONE', *, *, #106, .T. ) ;
#159 = AXIS2_PLACEMENT_3D ( 'NONE', #164, #165, #108 ) ;
#160 = CC_DESIGN_PERSON_AND_ORGANIZATION_ASSIGNMENT ( #62, #48, ( #171 ) ) ;
#161 = AXIS2_PLACEMENT_3D ( 'NONE', #33, #31, #81 ) ;
#162 = CARTESIAN_POINT ( 'NONE',  ( -3.000000000000000000, 0.000000000000000000, 0.000000000000000000 ) ) ;
#163 = CARTESIAN_POINT ( 'NONE',  ( -3.000000000000000000, 0.000000000000000000, 0.000000000000000000 ) ) ;
#164 = CARTESIAN_POINT ( 'NONE',  ( -3.000000000000001776, 0.000000000000000000, 0.000000000000000000 ) ) ;
#165 = DIRECTION ( 'NONE',  ( -1.000000000000000000, -0.000000000000000000, -0.000000000000000000 ) ) ;
#166 = APPROVAL_STATUS ( 'not_yet_approved' ) ;
#167 = PERSON_AND_ORGANIZATION_ROLE ( 'classification_officer' ) ;
#168 = CALENDAR_DATE ( 2020, 22, 12 ) ;
#169 = CLOSED_SHELL ( 'NONE', ( #90, #83, #21, #105 ) ) ;
#170 = COORDINATED_UNIVERSAL_TIME_OFFSET ( 8, 0, .AHEAD. ) ;
#171 = PRODUCT_DEFINITION_FORMATION_WITH_SPECIFIED_SOURCE ( 'ANY', '', #66, .NOT_KNOWN. ) ;
#172 = ORIENTED_EDGE ( 'NONE', *, *, #151, .T. ) ;
#173 = LOCAL_TIME ( 17, 18, 1.000000000000000000, #170 ) ;
#174 = EDGE_CURVE ( 'NONE', #49, #116, #64, .T. ) ;
#175 = ORIENTED_EDGE ( 'NONE', *, *, #148, .T. ) ;
ENDSEC;
END-ISO-10303-21;
